get
prime

Teemo Humor Guide by Aegi

Not Updated For Current Season

This guide has not yet been updated for the current season. Please keep this in mind while reading. You can see the most recently updated guides on the browse guides page.


1K
Views
0
Comments
0
Votes
League of Legends Build Guide Author Aegi

100% Win ratio Teemo build

Aegi Last updated on January 24, 2013
Like Build on Facebook Tweet This Build Share This Build on Reddit

Ability Sequence

1
2
3
4
5
6
7
8
9
10
11
12
13
14
15
16
17
18
Ability Key W





Not Updated For Current Season

The masteries shown here are not yet updated for the current season, the guide author needs to set up the new masteries. As such, they will be different than the masteries you see in-game.



Masteries

 
 
 
 
 
 
 
 
 
 
 
 
 
 
 
 
 
 
 
 
 
Executioner
 
 

Offense: 0

 
 
 
 
 
 
 
 
 
 
 
 
 
 
 
 
 
 
 
 
 
1/
Honor Guard
 
 

Defense: 30

 
 
 
 
 
 
 
 
 
 
 
 
 
 
 
 
Pickpocket
Intelligence
 
 
 
 
 
 
 
Nimble
 
 

Utility: 0


Guide Top

Introduction

---|--|--|--|--|--|--8888888888--|--8888888888--|--888----888--|--8888888888
---|--|--|--|--|--|--8888888888--|--8888888888--|--8888--8888--|--8888888888
---|--|--|--|--|--|--|--8888--|--|--888---|--|--|--88-8888-88--|--888----888
---|--|--|--|--|--|--|--8888--|--|--888---|--|--|--88--88--88--|--888----888
---|--|--|--|--|--|--|--8888--|--|--8888888888--|--88-|--|-88--|--666----999
---|--|--|--|--|--|--|--8888--|--|--8888888888--|--88-|--|-88--|--888----888
---|--|--|--|--|--|--|--8888--|--|--888---|--|--|--88-|--|-88--|--888----888
---|--|--|--|--|--|--|--8888--|--|--888---|--|--|--88-|--|-88--|--888----888
---|--|--|--|--|--|--|--8888--|--|--8888888888--|--888----888--|--8888888888
---|--|--|--|--|--|--|--8888--|--|--8888888888--|--888----888--|--8888888888




I am good Teemo player. Truzt me on thiz one, I play Teemo a LOT, and I have many many winz, mainly becauze I found the bezt build for Teemo.


Guide Top

Runez

I choze the flat AD markz to kill my enemiez
I choze the zcaling armur zealz to liv
I uze zcaling magic rezizt glyfz to liv mur
The Quintezzenzes are to come back in caze reviv iz down and you di


Guide Top

Mazteriez

Theze mazteriez are bezt. Look at them.


Guide Top

Itemz

You juzt need to get deze itemz, they r gud


Guide Top

Zkill Zequence

Look abuv


Guide Top

Zpellz

You need to get Revive/Revive to coem baeck if you di


Guide Top

Zummary

Bazically, you kill thingz and they di


Guide Top

Ranked Play

Right click


Guide Top

ProZ / Conz

Proz:
- Thiz iz Temo
- Alwayz win
- 100%
- Win
- Rato
- Tu ged

Conz:
- C
- L
- O
- S
- E
-
- Y
- O
- U
- R
-
- F
- A
- C
- E


Guide Top

Creeping / Jungling

Left Clik


Guide Top

Team Work

Go rambu on enemai tem and vin


Guide Top

Unique Zkillz

Temo pazzive iz uzlezz. Dun uz.


Guide Top

Farming

Walk to nexuz and 1 hit. Win.


Mobafire

General Guides

League of Legends

More Guides

The Charts


Featured

30 Days

All Time

Popular
Top Guide by Champion